S.U.G. Song Slide

Mardy Bum Notes

Artic Monkeys



Intro

A|-------------------------------------------------
E|--5--5--3--5--3-------3--5--5--5--3--5--3--------
C|----------------5--5-----------------------5--5--
G|-------------------------------------------------

A|-------------------------------------------------
E|--3-------------------------------------------3--
C|-----4--5--5--4--2--5--0--0----5--5---5--5--5----
G|-------------------------------------------------

Alternative Chords during instrumentals
[F^^] [A^] [Bb^] [Am^^] [Gm^] [C^^]










































Soprano/Concert/Tenor
F^^














A^














Bb^














Am^^














Gm^














C^^














 
Baritone
F^^














A^














Bb^














Am^^














Gm^














C^^














 

X