HOME
SONGS
TABS
ADMIN

RIGHT
SOPRANO/
 CONCERT/
 TENOR
 UKULELE




Seven Nation Army

The White Stripes

4:4 Key:B BPM: FS:auto

Lo G
    Em    Em       C   B

A:--------------------------


E:--0--0--3--0-------------- x2


C:--------------2--0--------


G:---------------------4----


Hi G
    Em    Em       C   B

A:--7--7--10-7--5-----------


E:-----------------8---7---- x2


C:--------------------------


G:--------------------------


Baritone
    Em    Em       C   B

E:--0--0--3--0--------------


B:--------------3--1---0---- x2


G:--------------------------


D:--------------------------


Alternative
    Em    Em       C   B

A:--2-----2--------3---2----


E:--3-----3--------3---2---- x2


C:--4-----4--------4---3----


G:--4-----4--------5---4----



I'm gonna [Em]fight 'em off  [C][B]
A seven nation [Em]army couldn't hold me [C]back [B]
They're gonna [Em]rip it off  [C][B]
Taking their [Em]time right be-hind my [C]back [B]
And I'm [Em]talking to my-self at [C]night
Because I [B]can't for-[Em]get  [C][B]
[Em]Back and forth through my [C]mind
Behind a [B]ciga-[Em]rette  [C][B]
And a [G]message coming from my [A]eyes says leave it alone

RIFF

Don't want [Em]to hear about [C]i t [B]
Every single [Em]one's got a story to tell [C][B]
Everyone [Em]knows about it  [C][B]
From the Queen [Em]of England to the hounds [C]of [B]Hell
And if I [Em]catch it coming b-[C]ac[B]k my way
I'm gonna serve [Em]it to you  [C][B]
And that [Em]ain't what you wa[C]nt[B]to hear
But that's what [Em]I'll do [C][B]
And a [G]feeling coming from my [A]bones says find a home

RIFF

I'm going [Em]to Wichita [C][B]
Far from this [Em]opera, forever more  [C][B]
I'm going [Em]to work the stra-[C]aw [B]
Make the sweat [Em]drip out of eve-ry pore [C][B]
And I'm bl-[Em]eeding and I'm bl-[C]ee[B]eding and I'm bleeding
Right before the [Em]Lord   [C][B]
All the [Em]words are going to [C]bl-[B]eed from me
And I will think [Em]no more   [C][B]
And the [G]stains coming from my [A]blood tell me go back home 

RIFF

Accomp. Cross Harp G


Soprano/Concert/Tenor Ukulele Chords
right handed
Em















C















B















G















A